  0
SECTION
  2
HEADER
  9
$ACADVER
  1
AC1015
  9
$ACADMAINTVER
 70
     6
  9
$DWGCODEPAGE
  3
ANSI_1254
  9
$INSBASE
 10
0.0
 20
0.0
 30
0.0
  9
$EXTMIN
 10
0.0
 20
0.0
 30
0.0
  9
$EXTMAX
 10
279.4
 20
215.9
 30
0.0
  9
$LIMMIN
 10
0.0
 20
0.0
  9
$LIMMAX
 10
279.4
 20
215.9
  9
$ORTHOMODE
 70
     0
  9
$REGENMODE
 70
     1
  9
$FILLMODE
 70
     1
  9
$QTEXTMODE
 70
     0
  9
$MIRRTEXT
 70
     1
  9
$LTSCALE
 40
1.0
  9
$ATTMODE
 70
     1
  9
$TEXTSIZE
 40
3.5
  9
$TRACEWID
 40
1.0
  9
$TEXTSTYLE
  7
Standard
  9
$CLAYER
  8
0
  9
$CELTYPE
  6
ByLayer
  9
$CECOLOR
 62
   256
  9
$CELTSCALE
 40
1.0
  9
$DISPSILH
 70
     0
  9
$DIMSCALE
 40
1.0
  9
$DIMASZ
 40
3.5
  9
$DIMEXO
 40
1.0
  9
$DIMDLI
 40
3.75
  9
$DIMRND
 40
0.0
  9
$DIMDLE
 40
0.0
  9
$DIMEXE
 40
1.0
  9
$DIMTP
 40
0.0
  9
$DIMTM
 40
0.0
  9
$DIMTXT
 40
3.5
  9
$DIMCEN
 40
2.5
  9
$DIMTSZ
 40
0.0
  9
$DIMTOL
 70
     0
  9
$DIMLIM
 70
     0
  9
$DIMTIH
 70
     1
  9
$DIMTOH
 70
     1
  9
$DIMSE1
 70
     0
  9
$DIMSE2
 70
     0
  9
$DIMTAD
 70
     1
  9
$DIMZIN
 70
     0
  9
$DIMBLK
  1

  9
$DIMASO
 70
     1
  9
$DIMSHO
 70
     1
  9
$DIMPOST
  1

  9
$DIMAPOST
  1

  9
$DIMALT
 70
     0
  9
$DIMALTD
 70
     3
  9
$DIMALTF
 40
0.0393700787
  9
$DIMLFAC
 40
1.0
  9
$DIMTOFL
 70
     1
  9
$DIMTVP
 40
0.0
  9
$DIMTIX
 70
     0
  9
$DIMSOXD
 70
     0
  9
$DIMSAH
 70
     0
  9
$DIMBLK1
  1

  9
$DIMBLK2
  1

  9
$DIMSTYLE
  2
ISO-25
  9
$DIMCLRD
 70
     0
  9
$DIMCLRE
 70
     0
  9
$DIMCLRT
 70
     0
  9
$DIMTFAC
 40
1.0
  9
$DIMGAP
 40
1.524
  9
$DIMJUST
 70
     0
  9
$DIMSD1
 70
     0
  9
$DIMSD2
 70
     0
  9
$DIMTOLJ
 70
     0
  9
$DIMTZIN
 70
     0
  9
$DIMALTZ
 70
     0
  9
$DIMALTTZ
 70
     0
  9
$DIMUPT
 70
     0
  9
$DIMDEC
 70
     2
  9
$DIMTDEC
 70
     2
  9
$DIMALTU
 70
     2
  9
$DIMALTTD
 70
     3
  9
$DIMTXSTY
  7
Standard
  9
$DIMAUNIT
 70
     0
  9
$DIMADEC
 70
     2
  9
$DIMALTRND
 40
0.0
  9
$DIMAZIN
 70
     0
  9
$DIMDSEP
 70
    44
  9
$DIMATFIT
 70
     3
  9
$DIMFRAC
 70
     0
  9
$DIMLDRBLK
  1

  9
$DIMLUNIT
 70
     2
  9
$DIMLWD
 70
    -2
  9
$DIMLWE
 70
    -2
  9
$DIMTMOVE
 70
     0
  9
$LUNITS
 70
     2
  9
$LUPREC
 70
     2
  9
$SKETCHINC
 40
1.0
  9
$FILLETRAD
 40
10.0
  9
$AUNITS
 70
     0
  9
$AUPREC
 70
     2
  9
$MENU
  1
.
  9
$ELEVATION
 40
0.0
  9
$PELEVATION
 40
0.0
  9
$THICKNESS
 40
0.0
  9
$LIMCHECK
 70
     0
  9
$CHAMFERA
 40
0.0
  9
$CHAMFERB
 40
0.0
  9
$CHAMFERC
 40
0.0
  9
$CHAMFERD
 40
0.0
  9
$SKPOLY
 70
     0
  9
$TDCREATE
 40
2458985.682012303
  9
$TDUCREATE
 40
2458985.557012303
  9
$TDUPDATE
 40
2458985.682012627
  9
$TDUUPDATE
 40
2458985.557012627
  9
$TDINDWG
 40
0.0000000116
  9
$TDUSRTIMER
 40
0.0000000116
  9
$USRTIMER
 70
     1
  9
$ANGBASE
 50
0.0
  9
$ANGDIR
 70
     0
  9
$PDMODE
 70
     0
  9
$PDSIZE
 40
-1.0
  9
$PLINEWID
 40
0.0
  9
$SPLFRAME
 70
     0
  9
$SPLINETYPE
 70
     6
  9
$SPLINESEGS
 70
     8
  9
$HANDSEED
  5
CB
  9
$SURFTAB1
 70
     6
  9
$SURFTAB2
 70
     6
  9
$SURFTYPE
 70
     6
  9
$SURFU
 70
     6
  9
$SURFV
 70
     6
  9
$UCSBASE
  2

  9
$UCSNAME
  2

  9
$UCSORG
 10
0.0
 20
0.0
 30
0.0
  9
$UCSXDIR
 10
1.0
 20
0.0
 30
0.0
  9
$UCSYDIR
 10
0.0
 20
1.0
 30
0.0
  9
$UCSORTHOREF
  2

  9
$UCSORTHOVIEW
 70
     0
  9
$UCSORGTOP
 10
0.0
 20
0.0
 30
0.0
  9
$UCSORGBOTTOM
 10
0.0
 20
0.0
 30
0.0
  9
$UCSORGLEFT
 10
0.0
 20
0.0
 30
0.0
  9
$UCSORGRIGHT
 10
0.0
 20
0.0
 30
0.0
  9
$UCSORGFRONT
 10
0.0
 20
0.0
 30
0.0
  9
$UCSORGBACK
 10
0.0
 20
0.0
 30
0.0
  9
$PUCSBASE
  2

  9
$PUCSNAME
  2

  9
$PUCSORG
 10
0.0
 20
0.0
 30
0.0
  9
$PUCSXDIR
 10
1.0
 20
0.0
 30
0.0
  9
$PUCSYDIR
 10
0.0
 20
1.0
 30
0.0
  9
$PUCSORTHOREF
  2

  9
$PUCSORTHOVIEW
 70
     0
  9
$PUCSORGTOP
 10
0.0
 20
0.0
 30
0.0
  9
$PUCSORGBOTTOM
 10
0.0
 20
0.0
 30
0.0
  9
$PUCSORGLEFT
 10
0.0
 20
0.0
 30
0.0
  9
$PUCSORGRIGHT
 10
0.0
 20
0.0
 30
0.0
  9
$PUCSORGFRONT
 10
0.0
 20
0.0
 30
0.0
  9
$PUCSORGBACK
 10
0.0
 20
0.0
 30
0.0
  9
$USERI1
 70
     0
  9
$USERI2
 70
     0
  9
$USERI3
 70
     0
  9
$USERI4
 70
     0
  9
$USERI5
 70
     0
  9
$USERR1
 40
0.0
  9
$USERR2
 40
0.0
  9
$USERR3
 40
0.0
  9
$USERR4
 40
0.0
  9
$USERR5
 40
0.0
  9
$WORLDVIEW
 70
     1
  9
$SHADEDGE
 70
     3
  9
$SHADEDIF
 70
    70
  9
$TILEMODE
 70
     1
  9
$MAXACTVP
 70
    64
  9
$PINSBASE
 10
0.0
 20
0.0
 30
0.0
  9
$PLIMCHECK
 70
     0
  9
$PEXTMIN
 10
1.0000000000E+20
 20
1.0000000000E+20
 30
1.0000000000E+20
  9
$PEXTMAX
 10
-1.0000000000E+20
 20
-1.0000000000E+20
 30
-1.0000000000E+20
  9
$PLIMMIN
 10
0.0
 20
0.0
  9
$PLIMMAX
 10
420.0
 20
297.0
  9
$UNITMODE
 70
     0
  9
$VISRETAIN
 70
     1
  9
$PLINEGEN
 70
     0
  9
$PSLTSCALE
 70
     1
  9
$TREEDEPTH
 70
  3020
  9
$CMLSTYLE
  2
Standard
  9
$CMLJUST
 70
     0
  9
$CMLSCALE
 40
20.0
  9
$PROXYGRAPHICS
 70
     1
  9
$MEASUREMENT
 70
     1
  9
$CELWEIGHT
370
    -1
  9
$ENDCAPS
280
     0
  9
$JOINSTYLE
280
     0
  9
$LWDISPLAY
290
     1
  9
$INSUNITS
 70
     4
  9
$HYPERLINKBASE
  1

  9
$STYLESHEET
  1

  9
$XEDIT
290
     1
  9
$CEPSNTYPE
380
     0
  9
$PSTYLEMODE
290
     1
  9
$FINGERPRINTGUID
  2
{bd710514-2e38-4b1d-995b-486dfa8e8fb3}
  9
$VERSIONGUID
  2
{FAEB1C32-E019-11D5-929B-00C0DF256EC4}
  9
$EXTNAMES
290
     1
  9
$PSVPSCALE
 40
0.0
  9
$OLESTARTUP
290
     0
  0
ENDSEC
  0
SECTION
  2
CLASSES
  0
CLASS
  1
ACDBDICTIONARYWDFLT
  2
AcDbDictionaryWithDefault
  3
ObjectDBX Classes
 90
        0
280
     0
281
     0
  0
CLASS
  1
VISUALSTYLE
  2
AcDbVisualStyle
  3
ObjectDBX Classes
 90
     4095
280
     0
281
     0
  0
CLASS
  1
MATERIAL
  2
AcDbMaterial
  3
ObjectDBX Classes
 90
     1153
280
     0
281
     0
  0
CLASS
  1
SCALE
  2
AcDbScale
  3
ObjectDBX Classes
 90
     1153
280
     0
281
     0
  0
CLASS
  1
TABLESTYLE
  2
AcDbTableStyle
  3
ObjectDBX Classes
 90
     4095
280
     0
281
     0
  0
CLASS
  1
MLEADERSTYLE
  2
AcDbMLeaderStyle
  3
ACDB_MLEADERSTYLE_CLASS
 90
     4095
280
     0
281
     0
  0
CLASS
  1
SUN
  2
AcDbSun
  3
SCENEOE
 90
     1153
280
     0
281
     0
  0
CLASS
  1
ACDBPLACEHOLDER
  2
AcDbPlaceHolder
  3
ObjectDBX Classes
 90
        0
280
     0
281
     0
  0
CLASS
  1
LAYOUT
  2
AcDbLayout
  3
ObjectDBX Classes
 90
        0
280
     0
281
     0
  0
ENDSEC
  0
SECTION
  2
TABLES
  0
TABLE
  2
VPORT
  5
8
330
0
100
AcDbSymbolTable
 70
     1
  0
VPORT
  5
29
330
8
100
AcDbSymbolTableRecord
100
AcDbViewportTableRecord
  2
*Active
 70
     0
 10
0.0
 20
0.0
 11
1.0
 21
1.0
 12
139.7
 22
107.95
 13
0.0
 23
0.0
 14
10.0
 24
10.0
 15
10.0
 25
10.0
 16
0.0
 26
0.0
 36
1.0
 17
0.0
 27
0.0
 37
0.0
 40
215.9
 41
1.2941176471
 42
50.0
 43
0.0
 44
0.0
 50
0.0
 51
0.0
 71
     0
 72
  2000
 73
     1
 74
     3
 75
     0
 76
     0
 77
     0
 78
     0
281
     0
 65
     1
110
0.0
120
0.0
130
0.0
111
1.0
121
0.0
131
0.0
112
0.0
122
1.0
132
0.0
 79
     0
146
0.0
  0
ENDTAB
  0
TABLE
  2
LTYPE
  5
5
330
0
100
AcDbSymbolTable
 70
     6
  0
LTYPE
  5
14
330
5
100
AcDbSymbolTableRecord
100
AcDbLinetypeTableRecord
  2
ByBlock
 70
     0
  3

 72
    65
 73
     0
 40
0.0
  0
LTYPE
  5
15
330
5
100
AcDbSymbolTableRecord
100
AcDbLinetypeTableRecord
  2
ByLayer
 70
     0
  3

 72
    65
 73
     0
 40
0.0
  0
LTYPE
  5
16
330
5
100
AcDbSymbolTableRecord
100
AcDbLinetypeTableRecord
  2
Continuous
 70
     0
  3
Solid line
 72
    65
 73
     0
 40
0.0
  0
LTYPE
  5
6E
330
5
100
AcDbSymbolTableRecord
100
AcDbLinetypeTableRecord
  2
HIDDEN
 70
     0
  3
Hidden __ __ __ __ __ __ __ __ __ __ __ __ __ __
 72
    65
 73
     2
 40
1.905
 49
1.27
 74
     0
 49
-0.635
 74
     0
  0
LTYPE
  5
6F
330
5
100
AcDbSymbolTableRecord
100
AcDbLinetypeTableRecord
  2
PHANTOM
 70
     0
  3
Phantom ______  __  __  ______  __  __  ______
 72
    65
 73
     6
 40
12.7
 49
6.35
 74
     0
 49
-1.27
 74
     0
 49
1.27
 74
     0
 49
-1.27
 74
     0
 49
1.27
 74
     0
 49
-1.27
 74
     0
  0
LTYPE
  5
70
330
5
100
AcDbSymbolTableRecord
100
AcDbLinetypeTableRecord
  2
CENTER
 70
     0
  3
Center ____ _ ____ _ ____ _ ____ _ ____ _ ____
 72
    65
 73
     4
 40
10.16
 49
6.35
 74
     0
 49
-1.27
 74
     0
 49
1.27
 74
     0
 49
-1.27
 74
     0
  0
LTYPE
  5
71
330
5
100
AcDbSymbolTableRecord
100
AcDbLinetypeTableRecord
  2
CENTERX2
 70
     0
  3
Center (2x) ________  __  ________  __  _____
 72
    65
 73
     4
 40
20.32
 49
12.7
 74
     0
 49
-2.54
 74
     0
 49
2.54
 74
     0
 49
-2.54
 74
     0
  0
LTYPE
  5
72
330
5
100
AcDbSymbolTableRecord
100
AcDbLinetypeTableRecord
  2
DOT2
 70
     0
  3
Dot (.5x) ........................................
 72
    65
 73
     2
 40
0.635
 49
0.0
 74
     0
 49
-0.635
 74
     0
  0
ENDTAB
  0
TABLE
  2
LAYER
  5
2
330
0
100
AcDbSymbolTable
 70
    17
  0
LAYER
  5
10
330
2
100
AcDbSymbolTableRecord
100
AcDbLayerTableRecord
  2
0
 70
     0
 62
     7
  6
Continuous
370
    -3
390
F
  0
LAYER
  5
73
330
2
100
AcDbSymbolTableRecord
100
AcDbLayerTableRecord
  2
FORMAT
 70
     0
 62
     7
  6
Continuous
370
    -3
390
F
  0
LAYER
  5
74
330
2
100
AcDbSymbolTableRecord
100
AcDbLayerTableRecord
  2
YARDIMCI_GEOMETRI
 70
     0
 62
    -6
  6
Continuous
290
     0
370
    -3
390
F
  0
LAYER
  5
75
330
2
100
AcDbSymbolTableRecord
100
AcDbLayerTableRecord
  2
SAYFA_CERCEVESI
 70
     0
 62
     7
  6
Continuous
370
    25
390
F
  0
LAYER
  5
76
330
2
100
AcDbSymbolTableRecord
100
AcDbLayerTableRecord
  2
ANTET
 70
     0
 62
     7
  6
Continuous
370
    -3
390
F
  0
LAYER
  5
77
330
2
100
AcDbSymbolTableRecord
100
AcDbLayerTableRecord
  2
OLCU
 70
     0
 62
   150
  6
Continuous
370
    -3
390
F
  0
LAYER
  5
78
330
2
100
AcDbSymbolTableRecord
100
AcDbLayerTableRecord
  2
METIN
 70
     0
 62
    96
  6
Continuous
370
    -3
390
F
  0
LAYER
  5
79
330
2
100
AcDbSymbolTableRecord
100
AcDbLayerTableRecord
  2
BALON
 70
     0
 62
     5
  6
Continuous
370
    -3
390
F
  0
LAYER
  5
7A
330
2
100
AcDbSymbolTableRecord
100
AcDbLayerTableRecord
  2
VURGU
 70
     0
 62
     7
  6
Continuous
370
    -3
390
F
  0
LAYER
  5
7B
330
2
100
AcDbSymbolTableRecord
100
AcDbLayerTableRecord
  2
SILIK
 70
     0
 62
     7
  6
Continuous
370
    -3
390
F
  0
LAYER
  5
7C
330
2
100
AcDbSymbolTableRecord
100
AcDbLayerTableRecord
  2
MODEL
 70
     0
 62
     7
  6
Continuous
370
    -3
390
F
  0
LAYER
  5
7D
330
2
100
AcDbSymbolTableRecord
100
AcDbLayerTableRecord
  2
DETAYLANDıRMA
 70
     0
 62
   190
  6
Continuous
370
    -3
390
F
  0
LAYER
  5
7E
330
2
100
AcDbSymbolTableRecord
100
AcDbLayerTableRecord
  2
TOLERANS
 70
     0
 62
   230
  6
Continuous
370
    -3
390
F
  0
LAYER
  5
7F
330
2
100
AcDbSymbolTableRecord
100
AcDbLayerTableRecord
  2
MERKEZ_CIZGILERI
 70
     0
 62
    30
  6
Continuous
370
    -3
390
F
  0
LAYER
  5
80
330
2
100
AcDbSymbolTableRecord
100
AcDbLayerTableRecord
  2
KESIT-DETAY_CIZGILERI
 70
     0
 62
     7
  6
Continuous
370
    -3
390
F
  0
LAYER
  5
81
330
2
100
AcDbSymbolTableRecord
100
AcDbLayerTableRecord
  2
\U+041E\U+0421\U+0415\U+0412\U+042B\U+0415
 70
     0
 62
     7
  6
Continuous
370
    -3
390
F
  0
LAYER
  5
82
330
2
100
AcDbSymbolTableRecord
100
AcDbLayerTableRecord
  2
\U+0412\U+041E\U+0414\U+042F\U+041D\U+042B\U+0415_\U+0417\U+041D\U+0410\U+041A\U+0418
 70
     0
 62
    11
  6
Continuous
370
    -3
390
F
  0
ENDTAB
  0
TABLE
  2
STYLE
  5
3
330
0
100
AcDbSymbolTable
 70
     1
  0
STYLE
  5
11
330
3
100
AcDbSymbolTableRecord
100
AcDbTextStyleTableRecord
  2
Standard
 70
     0
 40
0.0
 41
1.0
 50
0.0
 71
     0
 42
3.5
  3
txt
  4

  0
ENDTAB
  0
TABLE
  2
VIEW
  5
6
330
0
100
AcDbSymbolTable
 70
     0
  0
ENDTAB
  0
TABLE
  2
UCS
  5
7
330
0
100
AcDbSymbolTable
 70
     0
  0
ENDTAB
  0
TABLE
  2
APPID
  5
9
330
0
100
AcDbSymbolTable
 70
     1
  0
APPID
  5
12
330
9
100
AcDbSymbolTableRecord
100
AcDbRegAppTableRecord
  2
ACAD
 70
     0
  0
ENDTAB
  0
TABLE
  2
DIMSTYLE
  5
A
330
0
100
AcDbSymbolTable
 70
     1
100
AcDbDimStyleTable
  0
DIMSTYLE
105
27
330
A
100
AcDbSymbolTableRecord
100
AcDbDimStyleTableRecord
  2
ISO-25
 70
     0
 41
2.5
 42
0.625
 43
3.75
 44
1.25
 73
     0
 74
     0
 77
     1
 78
     8
140
2.5
141
2.5
143
0.0393700787
147
0.625
171
     3
172
     1
178
     0
271
     2
272
     2
274
     3
278
    44
283
     0
284
     8
340
11
  0
ENDTAB
  0
TABLE
  2
BLOCK_RECORD
  5
1
330
0
100
AcDbSymbolTable
 70
     3
  0
BLOCK_RECORD
  5
1F
330
1
100
AcDbSymbolTableRecord
100
AcDbBlockTableRecord
  2
*Model_Space
340
22
  0
BLOCK_RECORD
  5
1B
330
1
100
AcDbSymbolTableRecord
100
AcDbBlockTableRecord
  2
*Paper_Space
340
1E
  0
BLOCK_RECORD
  5
23
330
1
100
AcDbSymbolTableRecord
100
AcDbBlockTableRecord
  2
*Paper_Space0
340
26
  0
BLOCK_RECORD
  5
88
330
1
100
AcDbSymbolTableRecord
100
AcDbBlockTableRecord
  2
SW_CENTERMARKSYMBOL_0
340
0
102
{BLKREFS
331
93
102
}
  0
BLOCK_RECORD
  5
B2
330
1
100
AcDbSymbolTableRecord
100
AcDbBlockTableRecord
  2
SW_CENTERMARKSYMBOL_1
340
0
102
{BLKREFS
331
BD
102
}
  0
ENDTAB
  0
ENDSEC
  0
SECTION
  2
BLOCKS
  0
BLOCK
  5
20
330
1F
100
AcDbEntity
  8
0
100
AcDbBlockBegin
  2
*Model_Space
 70
     0
 10
0.0
 20
0.0
 30
0.0
  3
*Model_Space
  1

  0
ENDBLK
  5
21
330
1F
100
AcDbEntity
  8
0
100
AcDbBlockEnd
  0
BLOCK
  5
1C
330
1B
100
AcDbEntity
 67
     1
  8
0
100
AcDbBlockBegin
  2
*Paper_Space
 70
     0
 10
0.0
 20
0.0
 30
0.0
  3
*Paper_Space
  1

  0
ENDBLK
  5
1D
330
1B
100
AcDbEntity
 67
     1
  8
0
100
AcDbBlockEnd
  0
BLOCK
  5
24
330
23
100
AcDbEntity
  8
0
100
AcDbBlockBegin
  2
*Paper_Space0
 70
     0
 10
0.0
 20
0.0
 30
0.0
  3
*Paper_Space0
  1

  0
ENDBLK
  5
25
330
23
100
AcDbEntity
  8
0
100
AcDbBlockEnd
  0
BLOCK
  5
89
330
88
100
AcDbEntity
  8
0
100
AcDbBlockBegin
  2
SW_CENTERMARKSYMBOL_0
 70
     0
 10
0.0
 20
0.0
 30
0.0
  3
SW_CENTERMARKSYMBOL_0
  1

  0
LINE
  5
8B
330
88
100
AcDbEntity
  8
FORMAT
 62
     0
100
AcDbLine
 10
0.0
 20
0.0
 30
0.0
 11
0.0
 21
2.5
 31
0.0
  0
LINE
  5
8C
330
88
100
AcDbEntity
  8
FORMAT
 62
     0
100
AcDbLine
 10
0.0
 20
0.0
 30
0.0
 11
-2.5
 21
0.0
 31
0.0
  0
LINE
  5
8D
330
88
100
AcDbEntity
  8
FORMAT
 62
     0
100
AcDbLine
 10
0.0
 20
0.0
 30
0.0
 11
0.0
 21
-2.5
 31
0.0
  0
LINE
  5
8E
330
88
100
AcDbEntity
  8
FORMAT
 62
     0
100
AcDbLine
 10
0.0
 20
0.0
 30
0.0
 11
2.5
 21
0.0
 31
0.0
  0
LINE
  5
8F
330
88
100
AcDbEntity
  8
FORMAT
 62
     0
100
AcDbLine
 10
0.0
 20
5.0
 30
0.0
 11
0.0
 21
34.0
 31
0.0
  0
LINE
  5
90
330
88
100
AcDbEntity
  8
FORMAT
 62
     0
100
AcDbLine
 10
-5.0
 20
0.0
 30
0.0
 11
-34.0
 21
0.0
 31
0.0
  0
LINE
  5
91
330
88
100
AcDbEntity
  8
FORMAT
 62
     0
100
AcDbLine
 10
0.0
 20
-5.0
 30
0.0
 11
0.0
 21
-34.0
 31
0.0
  0
LINE
  5
92
330
88
100
AcDbEntity
  8
FORMAT
 62
     0
100
AcDbLine
 10
5.0
 20
0.0
 30
0.0
 11
34.0
 21
0.0
 31
0.0
  0
ENDBLK
  5
8A
330
88
100
AcDbEntity
  8
0
100
AcDbBlockEnd
  0
BLOCK
  5
B3
330
B2
100
AcDbEntity
  8
0
100
AcDbBlockBegin
  2
SW_CENTERMARKSYMBOL_1
 70
     0
 10
0.0
 20
0.0
 30
0.0
  3
SW_CENTERMARKSYMBOL_1
  1

  0
LINE
  5
B5
330
B2
100
AcDbEntity
  8
FORMAT
 62
     0
100
AcDbLine
 10
0.0
 20
0.0
 30
0.0
 11
0.0
 21
2.5
 31
0.0
  0
LINE
  5
B6
330
B2
100
AcDbEntity
  8
FORMAT
 62
     0
100
AcDbLine
 10
0.0
 20
0.0
 30
0.0
 11
-2.5
 21
0.0
 31
0.0
  0
LINE
  5
B7
330
B2
100
AcDbEntity
  8
FORMAT
 62
     0
100
AcDbLine
 10
0.0
 20
0.0
 30
0.0
 11
0.0
 21
-2.5
 31
0.0
  0
LINE
  5
B8
330
B2
100
AcDbEntity
  8
FORMAT
 62
     0
100
AcDbLine
 10
0.0
 20
0.0
 30
0.0
 11
2.5
 21
0.0
 31
0.0
  0
LINE
  5
B9
330
B2
100
AcDbEntity
  8
FORMAT
 62
     0
100
AcDbLine
 10
0.0
 20
5.0
 30
0.0
 11
0.0
 21
18.5
 31
0.0
  0
LINE
  5
BA
330
B2
100
AcDbEntity
  8
FORMAT
 62
     0
100
AcDbLine
 10
-5.0
 20
0.0
 30
0.0
 11
-18.5
 21
0.0
 31
0.0
  0
LINE
  5
BB
330
B2
100
AcDbEntity
  8
FORMAT
 62
     0
100
AcDbLine
 10
0.0
 20
-5.0
 30
0.0
 11
0.0
 21
-18.5
 31
0.0
  0
LINE
  5
BC
330
B2
100
AcDbEntity
  8
FORMAT
 62
     0
100
AcDbLine
 10
5.0
 20
0.0
 30
0.0
 11
18.5
 21
0.0
 31
0.0
  0
ENDBLK
  5
B4
330
B2
100
AcDbEntity
  8
0
100
AcDbBlockEnd
  0
ENDSEC
  0
SECTION
  2
ENTITIES
  0
LINE
  5
83
330
1F
100
AcDbEntity
  8
0
  6
Continuous
 62
     7
370
    25
100
AcDbLine
 10
145.6940355032
 20
99.0029005303
 30
0.0
 11
207.5275510204
 21
99.0029005303
 31
0.0
  0
LINE
  5
84
330
1F
100
AcDbEntity
  8
0
  6
Continuous
 62
     7
370
    25
100
AcDbLine
 10
207.5275510204
 20
131.0029005303
 30
0.0
 11
145.6772765724
 21
131.0029005303
 31
0.0
  0
CIRCLE
  5
85
330
1F
100
AcDbEntity
  8
0
  6
Continuous
 62
     7
370
    25
100
AcDbCircle
 10
118.5275510204
 20
115.0029005303
 30
0.0
 40
25.7
  0
CIRCLE
  5
86
330
1F
100
AcDbEntity
  8
0
  6
Continuous
 62
     7
370
    25
100
AcDbCircle
 10
118.5275510204
 20
115.0029005303
 30
0.0
 40
31.50000000000001
  0
LINE
  5
87
330
1F
100
AcDbEntity
  8
0
  6
Continuous
 62
     7
370
    25
100
AcDbLine
 10
207.5275510204
 20
131.0029005303
 30
0.0
 11
207.5275510204
 21
99.0029005303
 31
0.0
  0
INSERT
  5
93
330
1F
100
AcDbEntity
  8
FORMAT
100
AcDbBlockReference
  2
SW_CENTERMARKSYMBOL_0
 10
118.5275510204
 20
115.0029005303
 30
0.0
  0
LINE
  5
94
330
1F
100
AcDbEntity
  8
0
  6
Continuous
 62
     7
370
    25
100
AcDbLine
 10
87.0275510204
 20
35.1792398827
 30
0.0
 11
87.0275510204
 21
-180.8207601173
 31
0.0
  0
LINE
  5
95
330
1F
100
AcDbEntity
  8
0
  6
Continuous
 62
     7
370
    25
100
AcDbLine
 10
150.0275510204
 20
-56.8754720796
 30
0.0
 11
150.0275510204
 21
35.1792398827
 31
0.0
  0
LINE
  5
96
330
1F
100
AcDbEntity
  8
0
  6
Continuous
 62
     7
370
    25
100
AcDbLine
 10
150.0275510204
 20
-180.8207601173
 30
0.0
 11
150.0275510204
 21
-88.8207601173
 31
0.0
  0
LINE
  5
97
330
1F
100
AcDbEntity
  8
0
  6
Continuous
 62
     7
370
    25
100
AcDbLine
 10
150.0275510204
 20
-88.8207601173
 30
0.0
 11
207.5275510204
 21
-88.8207601173
 31
0.0
  0
LINE
  5
98
330
1F
100
AcDbEntity
  8
0
  6
Continuous
 62
     7
370
    25
100
AcDbLine
 10
207.5275510204
 20
-56.8207601173
 30
0.0
 11
149.9998035498
 21
-56.8207601173
 31
0.0
  0
LWPOLYLINE
  5
99
330
1F
100
AcDbEntity
  8
0
  6
Continuous
 62
     7
370
    25
100
AcDbPolyline
 90
       22
 70
   128
 43
0.0
 10
149.9997998312
 20
-56.8754720796
 10
149.9892231639
 20
-56.8963507384
 10
149.7853980713
 20
-57.3029315883
 10
149.4114477587
 20
-58.0706727365
 10
148.9028586723
 20
-59.167580453
 10
148.2878292089
 20
-60.5968426659
 10
147.5795887677
 20
-62.4394838339
 10
146.8730635293
 20
-64.6220968486
 10
146.2554551437
 20
-67.1122868476
 10
145.8175582371
 20
-69.9062286135
 10
145.6640750792
 20
-72.4453430258
 10
145.7560823446
 20
-75.0885603889
 10
146.0335537407
 20
-77.3296608313
 10
146.4738432059
 20
-79.5099489257
 10
147.0494001608
 20
-81.6097235593
 10
147.7022274913
 20
-83.5404498135
 10
148.4243231529
 20
-85.3733289358
 10
149.0961329172
 20
-86.8986931751
 10
149.6143143223
 20
-87.9910222307
 10
149.9441923606
 20
-88.656016765
 10
150.0275510204
 20
-88.8207601173
 10
150.0275510204
 20
-88.8207601173
  0
LINE
  5
9A
330
1F
100
AcDbEntity
  8
0
  6
Continuous
 62
     7
370
    25
100
AcDbLine
 10
150.0275510204
 20
-180.8207601173
 30
0.0
 11
87.0275510204
 21
-180.8207601173
 31
0.0
  0
LINE
  5
9B
330
1F
100
AcDbEntity
  8
0
  6
Continuous
 62
     7
370
    25
100
AcDbLine
 10
150.0275510204
 20
35.1792398827
 30
0.0
 11
87.0275510204
 21
35.1792398827
 31
0.0
  0
LINE
  5
9C
330
1F
100
AcDbEntity
  8
0
  6
Continuous
 62
     7
370
    25
100
AcDbLine
 10
207.5275510204
 20
-56.8207601173
 30
0.0
 11
207.5275510204
 21
-88.8207601173
 31
0.0
  0
LINE
  5
9D
330
1F
100
AcDbEntity
  8
0
  6
Continuous
 62
     7
370
    25
100
AcDbLine
 10
150.0275510204
 20
317.9854136336
 30
0.0
 11
150.0275510204
 21
409.9854136336
 31
0.0
  0
LINE
  5
9E
330
1F
100
AcDbEntity
  8
0
  6
Continuous
 62
     7
370
    25
100
AcDbLine
 10
150.0275510204
 20
193.9854136336
 30
0.0
 11
150.0275510204
 21
286.0401255958
 31
0.0
  0
LINE
  5
9F
330
1F
100
AcDbEntity
  8
0
  6
Continuous
 62
     7
370
    25
100
AcDbLine
 10
87.0275510204
 20
409.9854136336
 30
0.0
 11
87.0275510204
 21
193.9854136336
 31
0.0
  0
LINE
  5
A0
330
1F
100
AcDbEntity
  8
0
  6
Continuous
 62
     7
370
    25
100
AcDbLine
 10
149.9998035498
 20
285.9854136336
 30
0.0
 11
207.5275510204
 21
285.9854136336
 31
0.0
  0
LINE
  5
A1
330
1F
100
AcDbEntity
  8
0
  6
Continuous
 62
     7
370
    25
100
AcDbLine
 10
207.5275510204
 20
317.9854136336
 30
0.0
 11
150.0275510204
 21
317.9854136336
 31
0.0
  0
SPLINE
  5
A2
330
1F
100
AcDbEntity
  8
0
  6
Continuous
 62
     7
370
    25
100
AcDbSpline
210
0.0
220
0.0
230
1.0
 70
     8
 71
     3
 72
    27
 73
    23
 74
     0
 42
0.000000001
 43
0.00000001
 40
0.0
 40
0.0
 40
0.0
 40
0.0
 40
0.048523134356819
 40
0.0985542012823077
 40
0.147053322339311
 40
0.1968103282458691
 40
0.2483558013226128
 40
0.3011813978847442
 40
0.3566776422375896
 40
0.4139758130910364
 40
0.4659243099527183
 40
0.5198360682278225
 40
0.5655263480528647
 40
0.6124952056058423
 40
0.6593839571962791
 40
0.7073415617853556
 40
0.7603280850229637
 40
0.8147029393007834
 40
0.8700729771007429
 40
0.9273436418708468
 40
0.9779977897330133
 40
1.0
 40
1.0
 40
1.0
 40
1.0
 10
150.027551020408
 20
317.9854136335875
 30
0.0
 10
150.008506632927
 20
317.9480840941646
 30
0.0
 10
149.9698260237293
 20
317.8722649412837
 30
0.0
 10
149.6660750633744
 20
317.2664427696794
 30
0.0
 10
149.210376431815
 20
316.320624401697
 30
0.0
 10
148.6226809767247
 20
315.0255406626168
 30
0.0
 10
147.9415735534075
 20
313.3811960167021
 30
0.0
 10
147.2166766604119
 20
311.3776615582795
 30
0.0
 10
146.5228832334237
 20
309.0208641424218
 30
0.0
 10
145.9808834069644
 20
306.4313889550861
 30
0.0
 10
145.6710207058324
 20
303.7035371870264
 30
0.0
 10
145.6355620147856
 20
301.103568585129
 30
0.0
 10
145.8365258044078
 20
298.6259223963531
 30
0.0
 10
146.2098827167717
 20
296.3611334985511
 30
0.0
 10
146.7304419430164
 20
294.2090398726896
 30
0.0
 10
147.3651475237817
 20
292.1607550798424
 30
0.0
 10
148.0714348644971
 20
290.2586991305337
 30
0.0
 10
148.7796739671885
 20
288.5856200398384
 30
0.0
 10
149.4045174427188
 20
287.2390137091846
 30
0.0
 10
149.8261323179187
 20
286.382542929903
 30
0.0
 10
150.0285728270334
 20
285.9833631448151
 30
0.0
 10
150.0064877572258
 20
286.0269318680739
 30
0.0
 10
149.9997998311835
 20
286.0401255958479
 30
0.0
  0
LINE
  5
A3
330
1F
100
AcDbEntity
  8
0
  6
Continuous
 62
     7
370
    25
100
AcDbLine
 10
87.0275510204
 20
409.9854136336
 30
0.0
 11
150.0275510204
 21
409.9854136336
 31
0.0
  0
LINE
  5
A4
330
1F
100
AcDbEntity
  8
0
  6
Continuous
 62
     7
370
    25
100
AcDbLine
 10
87.0275510204
 20
193.9854136336
 30
0.0
 11
150.0275510204
 21
193.9854136336
 31
0.0
  0
LINE
  5
A5
330
1F
100
AcDbEntity
  8
0
  6
Continuous
 62
     7
370
    25
100
AcDbLine
 10
207.5275510204
 20
317.9854136336
 30
0.0
 11
207.5275510204
 21
285.9854136336
 31
0.0
  0
LINE
  5
A6
330
1F
100
AcDbEntity
  8
0
  6
Continuous
 62
     7
370
    25
100
AcDbLine
 10
240.7817023016
 20
83.5029005303
 30
0.0
 11
456.7817023016
 21
83.5029005303
 31
0.0
  0
LINE
  5
A7
330
1F
100
AcDbEntity
  8
0
  6
Continuous
 62
     7
370
    25
100
AcDbLine
 10
456.7817023016
 20
146.5029005303
 30
0.0
 11
240.7817023016
 21
146.5029005303
 31
0.0
  0
LINE
  5
A8
330
1F
100
AcDbEntity
  8
0
  6
Continuous
 62
     7
370
    25
100
AcDbLine
 10
456.7817023016
 20
146.5029005303
 30
0.0
 11
456.7817023016
 21
83.5029005303
 31
0.0
  0
LINE
  5
A9
330
1F
100
AcDbEntity
  8
0
  6
Continuous
 62
     7
370
    25
100
AcDbLine
 10
240.7817023016
 20
146.5029005303
 30
0.0
 11
240.7817023016
 21
83.5029005303
 31
0.0
  0
LINE
  5
AA
330
1F
100
AcDbEntity
  8
0
  6
Continuous
 62
     7
370
    25
100
AcDbLine
 10
30.8316797838
 20
146.5029005303
 30
0.0
 11
-185.1683202162
 21
146.5029005303
 31
0.0
  0
LINE
  5
AB
330
1F
100
AcDbEntity
  8
0
  6
Continuous
 62
     7
370
    25
100
AcDbLine
 10
-185.1683202162
 20
83.5029005303
 30
0.0
 11
30.8316797838
 21
83.5029005303
 31
0.0
  0
CIRCLE
  5
AC
330
1F
100
AcDbEntity
  8
0
  6
Continuous
 62
     7
370
    25
100
AcDbCircle
 10
-77.1683202162
 20
115.0029005303
 30
0.0
 40
12.99999999999999
  0
CIRCLE
  5
AD
330
1F
100
AcDbEntity
  8
0
  6
Continuous
 62
     7
370
    25
100
AcDbCircle
 10
-77.1683202162
 20
115.0029005303
 30
0.0
 40
15.99999999999999
  0
LINE
  5
AE
330
1F
100
AcDbEntity
  8
0
  6
Continuous
 62
     7
370
    25
100
AcDbLine
 10
-185.1683202162
 20
115.0029005303
 30
0.0
 11
-185.1683202162
 21
146.5029005303
 31
0.0
  0
LINE
  5
AF
330
1F
100
AcDbEntity
  8
0
  6
Continuous
 62
     7
370
    25
100
AcDbLine
 10
-185.1683202162
 20
83.5029005303
 30
0.0
 11
-185.1683202162
 21
115.0029005303
 31
0.0
  0
LINE
  5
B0
330
1F
100
AcDbEntity
  8
0
  6
Continuous
 62
     7
370
    25
100
AcDbLine
 10
30.8316797838
 20
115.0029005303
 30
0.0
 11
30.8316797838
 21
146.5029005303
 31
0.0
  0
LINE
  5
B1
330
1F
100
AcDbEntity
  8
0
  6
Continuous
 62
     7
370
    25
100
AcDbLine
 10
30.8316797838
 20
83.5029005303
 30
0.0
 11
30.8316797838
 21
115.0029005303
 31
0.0
  0
INSERT
  5
BD
330
1F
100
AcDbEntity
  8
FORMAT
100
AcDbBlockReference
  2
SW_CENTERMARKSYMBOL_1
 10
-77.1683202162
 20
115.0029005303
 30
0.0
  0
LINE
  5
BE
330
1F
100
AcDbEntity
  8
0
  6
Continuous
 62
     7
370
    25
100
AcDbLine
 10
462.8610122583
 20
-104.4708733474
 30
0.0
 11
418.2486203646
 21
-78.7166877004
 31
0.0
  0
LINE
  5
BF
330
1F
100
AcDbEntity
  8
0
  6
Continuous
 62
     7
370
    25
100
AcDbLine
 10
386.2460195976
 20
-60.2419795229
 30
0.0
 11
310.125947522
 21
-16.2987972705
 31
0.0
  0
LINE
  5
C0
330
1F
100
AcDbEntity
  8
0
  6
Continuous
 62
     7
370
    25
100
AcDbLine
 10
278.6285074439
 20
-70.8598756005
 30
0.0
 11
431.3635721802
 21
-159.0319516774
 31
0.0
  0
LINE
  5
C1
330
1F
100
AcDbEntity
  8
0
  6
Continuous
 62
     7
370
    25
100
AcDbLine
 10
399.5315050424
 20
-89.5218483816
 30
0.0
 11
441.6766132378
 21
-65.1919952959
 31
0.0
  0
LINE
  5
C2
330
1F
100
AcDbEntity
  8
0
  6
Continuous
 62
     7
370
    25
100
AcDbLine
 10
425.6779135156
 20
-37.4784316997
 30
0.0
 11
383.5305521186
 21
-61.8095855311
 31
0.0
  0
SPLINE
  5
C3
330
1F
100
AcDbEntity
  8
0
  6
Continuous
 62
     7
370
    25
100
AcDbSpline
210
0.0
220
0.0
230
1.0
 70
     8
 71
     3
 72
    22
 73
    18
 74
     0
 42
0.000000001
 43
0.00000001
 40
0.0
 40
0.0
 40
0.0
 40
0.0
 40
0.0646726112459139
 40
0.1313550254052484
 40
0.1959956312412831
 40
0.2623127713520653
 40
0.3310136165461371
 40
0.4014206361169185
 40
0.4753871488785872
 40
0.5517553055903387
 40
0.6209933090061877
 40
0.6928479867949384
 40
0.7537449124368973
 40
0.8163459522388851
 40
0.8788402251998072
 40
0.9427590869754529
 40
1.0
 40
1.0
 40
1.0
 40
1.0
 10
381.7049149594908
 20
-68.2756818181606
 30
0.0
 10
381.7178445142761
 20
-68.97474415460259
 30
0.0
 10
381.7441054300576
 20
-70.39459328693509
 30
0.0
 10
381.9577020342159
 20
-72.75254414500623
 30
0.0
 10
382.3042690148895
 20
-75.208824497899
 30
0.0
 10
382.8044681003342
 20
-77.71973993407266
 30
0.0
 10
383.4855795434643
 20
-80.25761880978973
 30
0.0
 10
384.3897133410221
 20
-82.77254222362642
 30
0.0
 10
385.5656327328768
 20
-85.17472803685305
 30
0.0
 10
387.0134239963962
 20
-87.2620683409184
 30
0.0
 10
388.7231743202818
 20
-88.935981554253
 30
0.0
 10
390.5366505721122
 20
-90.06037165991069
 30
0.0
 10
392.4304088561213
 20
-90.71048612235138
 30
0.0
 10
394.2969853558254
 20
-90.94426851217973
 30
0.0
 10
396.1825798873715
 20
-90.79347513124588
 30
0.0
 10
397.9665635464057
 20
-90.33873085913412
 30
0.0
 10
399.0188037436151
 20
-89.76431379801575
 30
0.0
 10
399.5159257439549
 20
-89.49293530552916
 30
0.0
  0
SPLINE
  5
C4
330
1F
100
AcDbEntity
  8
0
  6
Continuous
 62
     7
370
    25
100
AcDbSpline
210
0.0
220
0.0
230
1.0
 70
     8
 71
     3
 72
    12
 73
     8
 74
     0
 42
0.000000001
 43
0.00000001
 40
0.0
 40
0.0
 40
0.0
 40
0.0
 40
0.1512164756169427
 40
0.3748069731741763
 40
0.5935478473873396
 40
0.8200648690962762
 40
1.0
 40
1.0
 40
1.0
 40
1.0
 10
383.5551570001218
 20
-61.85040424020965
 30
0.0
 10
383.3650408116404
 20
-61.96260971978305
 30
0.0
 10
382.8938165428202
 20
-62.24072356948685
 30
0.0
 10
382.3825856024686
 20
-63.15962053655883
 30
0.0
 10
381.9662863997352
 20
-64.57896065933468
 30
0.0
 10
381.7418017958284
 20
-66.3014201187364
 30
0.0
 10
381.7162338231695
 20
-67.66987223239701
 30
0.0
 10
381.7049149594908
 20
-68.2756818181606
 30
0.0
  0
LWPOLYLINE
  5
C5
330
1F
100
AcDbEntity
  8
0
  6
Continuous
 62
     7
370
    25
100
AcDbPolyline
 90
       85
 70
   128
 43
0.0
 10
316.6510910903
 20
-30.7209086743
 10
316.5888088501
 20
-28.8347280507
 10
316.4023104371
 20
-27.031005258
 10
316.0926388259
 20
-25.319827446
 10
315.661525826
 20
-23.710764215
 10
315.1113823959
 20
-22.2128140993
 10
314.4452851611
 20
-20.8343542435
 10
313.6669592074
 20
-19.5830935544
 10
312.7807572492
 20
-18.4660295892
 10
311.7916352874
 20
-17.4894094229
 10
310.7051248932
 20
-16.6586947114
 10
309.5273022735
 20
-15.9785311485
 10
308.2647542901
 20
-15.4527224847
 10
306.9245416236
 20
-15.0842092553
 10
305.5141592866
 20
-14.8750523358
 10
304.0414947095
 20
-14.8264214166
 10
302.5147836299
 20
-14.9385884613
 10
300.9425640353
 20
-15.2109261866
 10
299.3336284157
 20
-15.6419115692
 10
297.6969745915
 20
-16.2291343641
 10
296.0417553949
 20
-16.9693105833
 10
294.377227483
 20
-17.8583008611
 10
292.712699571
 20
-18.8911336033
 10
291.0574803744
 20
-20.0620327901
 10
289.4208265502
 20
-21.3644502785
 10
287.8118909306
 20
-22.7911024214
 10
286.239671336
 20
-24.3340108014
 10
284.7129602564
 20
-25.984546849
 10
283.2402956793
 20
-27.7334800971
 10
281.8299133423
 20
-29.5710298014
 10
280.4897006758
 20
-31.4869196388
 10
279.2271526924
 20
-33.4704351761
 10
278.0493300727
 20
-35.5104837897
 10
276.9628196785
 20
-37.5956567004
 10
275.9736977167
 20
-39.7142927753
 10
275.0874957585
 20
-41.8545437423
 10
274.3091698048
 20
-44.0044404495
 10
273.64307257
 20
-46.1519598028
 10
273.09292914
 20
-48.2850920025
 10
272.66181614
 20
-50.3919077084
 10
272.3521445288
 20
-52.4606247522
 10
272.1656461158
 20
-54.4796740292
 10
272.1033638756
 20
-56.4377641967
 10
272.1656461158
 20
-58.3239448204
 10
272.3521445288
 20
-60.127667613
 10
272.66181614
 20
-61.838845425
 10
273.09292914
 20
-63.4479086561
 10
273.64307257
 20
-64.9458587718
 10
274.3091698048
 20
-66.3243186275
 10
275.0874957585
 20
-67.5755793167
 10
275.9736977167
 20
-68.6926432818
 10
276.9628196785
 20
-69.6692634482
 10
278.0493300727
 20
-70.4999781596
 10
279.2271526924
 20
-71.1801417225
 10
280.4897006758
 20
-71.7059503863
 10
281.8299133423
 20
-72.0744636157
 10
283.2402956793
 20
-72.2836205352
 10
284.7129602564
 20
-72.3322514545
 10
286.239671336
 20
-72.2200844097
 10
287.8118909306
 20
-71.9477466845
 10
289.4208265502
 20
-71.5167613019
 10
291.0574803744
 20
-70.9295385069
 10
292.712699571
 20
-70.1893622877
 10
294.377227483
 20
-69.3003720099
 10
296.0417553949
 20
-68.2675392678
 10
297.6969745915
 20
-67.0966400809
 10
299.3336284157
 20
-65.7942225926
 10
300.9425640353
 20
-64.3675704497
 10
302.5147836299
 20
-62.8246620697
 10
304.0414947095
 20
-61.1741260221
 10
305.5141592866
 20
-59.425192774
 10
306.9245416236
 20
-57.5876430696
 10
308.2647542901
 20
-55.6717532322
 10
309.5273022735
 20
-53.688237695
 10
310.7051248932
 20
-51.6481890813
 10
311.7916352874
 20
-49.5630161707
 10
312.7807572492
 20
-47.4443800957
 10
313.6669592074
 20
-45.3041291288
 10
314.4452851611
 20
-43.1542324215
 10
315.1113823959
 20
-41.0067130683
 10
315.661525826
 20
-38.8735808685
 10
316.0926388259
 20
-36.7667651627
 10
316.4023104371
 20
-34.6980481189
 10
316.5888088501
 20
-32.6789988419
 10
316.6510910903
 20
-30.7209086743
  0
LWPOLYLINE
  5
C6
330
1F
100
AcDbEntity
  8
0
  6
Continuous
 62
     7
370
    25
100
AcDbPolyline
 90
       12
 70
   128
 43
0.0
 10
469.3861558266
 20
-118.8929847512
 10
469.3238735864
 20
-117.0068041275
 10
469.1373751734
 20
-115.2030813349
 10
468.8277035622
 20
-113.4919035229
 10
468.3965905622
 20
-111.8828402918
 10
467.8464471322
 20
-110.3848901761
 10
467.1803498974
 20
-109.0064303204
 10
466.4020239437
 20
-107.7551696312
 10
465.5158219855
 20
-106.6381056661
 10
464.5267000237
 20
-105.6614854997
 10
463.4401896295
 20
-104.8307707883
 10
462.8610122583
 20
-104.4708733474
  0
LWPOLYLINE
  5
C7
330
1F
100
AcDbEntity
  8
0
  6
Continuous
 62
     7
370
    25
100
AcDbPolyline
 90
       33
 70
   128
 43
0.0
 10
431.3635721802
 20
-159.0319516774
 10
431.9622174287
 20
-159.3522177994
 10
433.2247654121
 20
-159.8780264632
 10
434.5649780786
 20
-160.2465396926
 10
435.9753604156
 20
-160.4556966121
 10
437.4480249927
 20
-160.5043275313
 10
438.9747360723
 20
-160.3921604866
 10
440.5469556669
 20
-160.1198227613
 10
442.1558912865
 20
-159.6888373787
 10
443.7925451107
 20
-159.1016145838
 10
445.4477643073
 20
-158.3614383646
 10
447.1122922192
 20
-157.4724480868
 10
448.7768201312
 20
-156.4396153446
 10
450.4320393278
 20
-155.2687161578
 10
452.068693152
 20
-153.9662986694
 10
453.6776287716
 20
-152.5396465265
 10
455.2498483662
 20
-150.9967381465
 10
456.7765594458
 20
-149.3462020989
 10
458.2492240229
 20
-147.5972688508
 10
459.6596063599
 20
-145.7597191465
 10
460.9998190264
 20
-143.8438293091
 10
462.2623670098
 20
-141.8603137718
 10
463.4401896295
 20
-139.8202651582
 10
464.5267000237
 20
-137.7350922475
 10
465.5158219855
 20
-135.6164561726
 10
466.4020239437
 20
-133.4762052056
 10
467.1803498974
 20
-131.3263084984
 10
467.8464471322
 20
-129.1787891451
 10
468.3965905622
 20
-127.0456569454
 10
468.8277035622
 20
-124.9388412395
 10
469.1373751734
 20
-122.8701241957
 10
469.3238735864
 20
-120.8510749187
 10
469.3861558266
 20
-118.8929847512
  0
LWPOLYLINE
  5
C8
330
1F
100
AcDbEntity
  8
0
  6
Continuous
 62
     7
370
    25
100
AcDbPolyline
 90
       77
 70
   128
 43
0.0
 10
312.5498717594
 20
-33.0884921986
 10
312.4878029658
 20
-31.3913880215
 10
312.3020205778
 20
-29.7775398904
 10
311.9937936774
 20
-28.2579720246
 10
311.565227767
 20
-26.8430646134
 10
311.0192503862
 20
-25.5424829091
 10
310.3595911141
 20
-24.3651112035
 10
309.5907560926
 20
-23.3189921392
 10
308.7179972444
 20
-22.4112717702
 10
307.7472763973
 20
-21.648150747
 10
306.6852245591
 20
-21.0348419599
 10
305.5390966208
 20
-20.5755349299
 10
304.3167217982
 20
-20.2733671898
 10
303.0264501509
 20
-20.1304028516
 10
301.6770955427
 20
-20.1476185066
 10
300.2778754336
 20
-20.3248965545
 10
298.8383479158
 20
-20.6610260066
 10
297.368346422
 20
-21.1537107577
 10
295.8779125528
 20
-21.7995852715
 10
294.377227483
 20
-22.5942375701
 10
292.8765424131
 20
-23.5322393725
 10
291.3861085439
 20
-24.6071831754
 10
289.9161070501
 20
-25.8117260226
 10
288.4765795323
 20
-27.137639665
 10
287.0773594232
 20
-28.575866768
 10
285.728004815
 20
-30.1165827822
 10
284.4377331677
 20
-31.7492630549
 10
283.2153583451
 20
-33.4627547243
 10
282.0692304068
 20
-35.2453529048
 10
281.0071785686
 20
-37.0848806435
 10
280.0364577215
 20
-38.9687721004
 10
279.1636988733
 20
-40.8841583869
 10
278.3948638518
 20
-42.8179554722
 10
277.7352045797
 20
-44.7569535616
 10
277.189227199
 20
-46.687907332
 10
276.7606612885
 20
-48.597626411
 10
276.4524343881
 20
-50.4730654811
 10
276.2666520001
 20
-52.3014133916
 10
276.2045832065
 20
-54.0701806724
 10
276.2666520001
 20
-55.7672848496
 10
276.4524343881
 20
-57.3811329806
 10
276.7606612885
 20
-58.9007008464
 10
277.189227199
 20
-60.3156082576
 10
277.7352045797
 20
-61.6161899619
 10
278.3948638518
 20
-62.7935616675
 10
279.1636988733
 20
-63.8396807318
 10
280.0364577215
 20
-64.7474011009
 10
281.0071785686
 20
-65.5105221241
 10
282.0692304068
 20
-66.1238309111
 10
283.2153583451
 20
-66.5831379411
 10
284.4377331677
 20
-66.8853056812
 10
285.728004815
 20
-67.0282700195
 10
287.0773594232
 20
-67.0110543645
 10
288.4765795323
 20
-66.8337763165
 10
289.9161070501
 20
-66.4976468645
 10
291.3861085439
 20
-66.0049621134
 10
292.8765424131
 20
-65.3590875996
 10
294.377227483
 20
-64.564435301
 10
295.8779125528
 20
-63.6264334985
 10
297.368346422
 20
-62.5514896956
 10
298.8383479158
 20
-61.3469468484
 10
300.2778754336
 20
-60.021033206
 10
301.6770955427
 20
-58.582806103
 10
303.0264501509
 20
-57.0420900889
 10
304.3167217982
 20
-55.4094098162
 10
305.5390966208
 20
-53.6959181468
 10
306.6852245591
 20
-51.9133199662
 10
307.7472763973
 20
-50.0737922276
 10
308.7179972444
 20
-48.1899007706
 10
309.5907560926
 20
-46.2745144842
 10
310.3595911141
 20
-44.3407173988
 10
311.0192503862
 20
-42.4017193094
 10
311.565227767
 20
-40.4707655391
 10
311.9937936774
 20
-38.56104646
 10
312.3020205778
 20
-36.68560739
 10
312.4878029658
 20
-34.8572594794
 10
312.5498717594
 20
-33.0884921986
  0
LWPOLYLINE
  5
C9
330
1F
100
AcDbEntity
  8
0
  6
Continuous
 62
     7
370
    25
100
AcDbPolyline
 90
       55
 70
   128
 43
0.0
 10
442.8696515321
 20
-56.6418662247
 10
442.8074958919
 20
-55.3736547068
 10
442.6218695197
 20
-54.0508301994
 10
442.3152826938
 20
-52.6912816347
 10
441.8918814749
 20
-51.3133945747
 10
441.3573916383
 20
-49.9358025783
 10
440.7190412422
 20
-48.5771352139
 10
439.9854628804
 20
-47.2557661269
 10
439.166576942
 20
-45.9895645673
 10
438.2734574544
 20
-44.7956537391
 10
437.3181823266
 20
-43.6901792382
 10
436.313670016
 20
-42.6880907106
 10
435.2735048283
 20
-41.8029396848
 10
434.2117532133
 20
-41.0466963099
 10
433.1427735401
 20
-40.4295874801
 10
432.0810219251
 20
-39.9599585338
 10
431.0408567374
 20
-39.6441603968
 10
430.0363444268
 20
-39.4864636972
 10
429.081069299
 20
-39.4890010123
 10
428.1879498114
 20
-39.6517380292
 10
427.369063873
 20
-39.9724740091
 10
426.6354855112
 20
-40.446871548
 10
425.9971351151
 20
-41.068515233
 10
425.4626452785
 20
-41.8289983996
 10
425.0392440596
 20
-42.7180368177
 10
424.7326572337
 20
-43.7236077677
 10
424.5470308615
 20
-44.8321126277
 10
424.4848752213
 20
-46.028560771
 10
424.5470308615
 20
-47.2967722889
 10
424.7326572337
 20
-48.6195967963
 10
425.0392440596
 20
-49.979145361
 10
425.4626452785
 20
-51.3570324209
 10
425.9971351151
 20
-52.7346244174
 10
426.6354855112
 20
-54.0932917818
 10
427.369063873
 20
-55.4146608688
 10
428.1879498114
 20
-56.6808624284
 10
429.081069299
 20
-57.8747732566
 10
430.0363444268
 20
-58.9802477575
 10
431.0408567374
 20
-59.982336285
 10
432.0810219251
 20
-60.8674873109
 10
433.1427735401
 20
-61.6237306858
 10
434.2117532133
 20
-62.2408395156
 10
435.2735048283
 20
-62.7104684619
 10
436.313670016
 20
-63.0262665989
 10
437.3181823266
 20
-63.1839632985
 10
438.2734574544
 20
-63.1814259834
 10
439.166576942
 20
-63.0186889664
 10
439.9854628804
 20
-62.6979529866
 10
440.7190412422
 20
-62.2235554477
 10
441.3573916383
 20
-61.6019117627
 10
441.8918814749
 20
-60.8414285961
 10
442.3152826938
 20
-59.952390178
 10
442.6218695197
 20
-58.9468192279
 10
442.8074958919
 20
-57.838314368
 10
442.8696515321
 20
-56.6418662247
  0
LWPOLYLINE
  5
CA
330
1F
100
AcDbEntity
  8
0
  6
Continuous
 62
     7
370
    25
100
AcDbPolyline
 90
       61
 70
   128
 43
0.0
 10
444.9909718757
 20
-57.8664783924
 10
444.9289941968
 20
-56.4650713398
 10
444.7437402004
 20
-55.0074604911
 10
444.4372395681
 20
-53.5096157359
 10
444.012850385
 20
-51.9879477748
 10
443.4752223478
 20
-50.4591283203
 10
442.8302458218
 20
-48.9399074384
 10
442.0849873047
 20
-47.4469300309
 10
441.2476120048
 20
-45.9965534707
 10
440.3272943811
 20
-44.604668387
 10
439.3341176262
 20
-43.286524564
 10
438.2789631923
 20
-42.0565638613
 10
437.1733915723
 20
-40.9282619856
 10
436.0295156401
 20
-39.9139808485
 10
434.85986794
 20
-39.0248331263
 10
433.6772633767
 20
-38.2705605077
 10
432.4946588134
 20
-37.6594269611
 10
431.3250111133
 20
-37.1981281937
 10
430.1811351811
 20
-36.8917182912
 10
429.0755635611
 20
-36.7435543447
 10
428.0204091272
 20
-36.7552596694
 10
427.0272323723
 20
-36.9267060193
 10
426.1069147486
 20
-37.2560149923
 10
425.2695394487
 20
-37.7395786104
 10
424.5242809316
 20
-38.3720988494
 10
423.8793044056
 20
-39.1466456852
 10
423.3416763684
 20
-40.0547330206
 10
422.9172871853
 20
-41.0864116606
 10
422.610786553
 20
-42.2303783183
 10
422.4255325566
 20
-43.4740994555
 10
422.3635548777
 20
-44.8039486033
 10
422.4255325566
 20
-46.2053556559
 10
422.610786553
 20
-47.6629665046
 10
422.9172871853
 20
-49.1608112598
 10
423.3416763684
 20
-50.6824792209
 10
423.8793044056
 20
-52.2112986754
 10
424.5242809316
 20
-53.7305195573
 10
425.2695394487
 20
-55.2234969648
 10
426.1069147486
 20
-56.6738735249
 10
427.0272323723
 20
-58.0657586086
 10
428.0204091272
 20
-59.3839024317
 10
429.0755635611
 20
-60.6138631344
 10
430.1811351811
 20
-61.7421650101
 10
431.3250111133
 20
-62.7564461472
 10
432.4946588134
 20
-63.6455938693
 10
433.6772633767
 20
-64.399866488
 10
434.85986794
 20
-65.0110000346
 10
436.0295156401
 20
-65.472298802
 10
437.1733915723
 20
-65.7787087045
 10
438.2789631923
 20
-65.9268726509
 10
439.3341176262
 20
-65.9151673262
 10
440.3272943811
 20
-65.7437209764
 10
441.2476120048
 20
-65.4144120033
 10
442.0849873047
 20
-64.9308483853
 10
442.8302458218
 20
-64.2983281463
 10
443.4752223478
 20
-63.5237813105
 10
444.012850385
 20
-62.6156939751
 10
444.4372395681
 20
-61.5840153351
 10
444.7437402004
 20
-60.4400486774
 10
444.9289941968
 20
-59.1963275401
 10
444.9909718757
 20
-57.8664783924
  0
ENDSEC
  0
SECTION
  2
OBJECTS
  0
DICTIONARY
  5
C
330
0
100
AcDbDictionary
281
     1
  3
ACAD_GROUP
350
D
  3
ACAD_LAYOUT
350
1A
  3
ACAD_MLINESTYLE
350
17
  3
ACAD_PLOTSETTINGS
350
19
  3
ACAD_PLOTSTYLENAME
350
E
  3
ACAD_SCALELIST
350
47
  0
DICTIONARY
  5
D
102
{ACAD_REACTORS
330
C
102
}
330
C
100
AcDbDictionary
281
     1
  0
DICTIONARY
  5
1A
102
{ACAD_REACTORS
330
C
102
}
330
C
100
AcDbDictionary
281
     1
  3
Layout1
350
1E
  3
Layout2
350
26
  3
Model
350
22
  0
DICTIONARY
  5
17
102
{ACAD_REACTORS
330
C
102
}
330
C
100
AcDbDictionary
281
     1
  3
Standard
350
18
  0
DICTIONARY
  5
19
102
{ACAD_REACTORS
330
C
102
}
330
C
100
AcDbDictionary
281
     1
  0
ACDBDICTIONARYWDFLT
  5
E
102
{ACAD_REACTORS
330
C
102
}
330
C
100
AcDbDictionary
281
     1
  3
Normal
350
F
100
AcDbDictionaryWithDefault
340
F
  0
DICTIONARY
  5
47
102
{ACAD_REACTORS
330
C
102
}
330
C
100
AcDbDictionary
281
     1
  3
A0
350
48
  3
A1
350
49
  3
A2
350
4A
  3
A3
350
4B
  3
A4
350
4C
  3
A5
350
4D
  3
A6
350
4E
  3
A7
350
4F
  3
A8
350
50
  3
A9
350
51
  3
B0
350
52
  3
B1
350
53
  3
B2
350
54
  3
B3
350
55
  3
B4
350
56
  3
B5
350
57
  3
B6
350
58
  3
B7
350
59
  3
B8
350
5A
  3
B9
350
5B
  3
C0
350
5C
  3
C1
350
5D
  3
C2
350
5E
  3
C3
350
5F
  3
C4
350
60
  3
C5
350
61
  3
C6
350
62
  3
C7
350
63
  3
C8
350
64
  3
C9
350
65
  3
D0
350
66
  3
D1
350
67
  3
D2
350
68
  0
LAYOUT
  5
1E
102
{ACAD_REACTORS
330
1A
102
}
330
1A
100
AcDbPlotSettings
  1

  2
none_device
  4

  6

 40
0.0
 41
0.0
 42
0.0
 43
0.0
 44
0.0
 45
0.0
 46
0.0
 47
0.0
 48
0.0
 49
0.0
140
0.0
141
0.0
142
1.0
143
1.0
 70
   688
 72
     1
 73
     0
 74
     5
  7

 75
    16
147
1.0
148
0.0
149
0.0
100
AcDbLayout
  1
Layout1
 70
     1
 71
     1
 10
0.0
 20
0.0
 11
420.0
 21
297.0
 12
0.0
 22
0.0
 32
0.0
 14
1.0000000000E+20
 24
1.0000000000E+20
 34
1.0000000000E+20
 15
-1.0000000000E+20
 25
-1.0000000000E+20
 35
-1.0000000000E+20
146
0.0
 13
0.0
 23
0.0
 33
0.0
 16
1.0
 26
0.0
 36
0.0
 17
0.0
 27
1.0
 37
0.0
 76
     0
330
1B
  0
LAYOUT
  5
26
102
{ACAD_REACTORS
330
1A
102
}
330
1A
100
AcDbPlotSettings
  1

  2
none_device
  4

  6

 40
0.0
 41
0.0
 42
0.0
 43
0.0
 44
0.0
 45
0.0
 46
0.0
 47
0.0
 48
0.0
 49
0.0
140
0.0
141
0.0
142
1.0
143
1.0
 70
   688
 72
     1
 73
     0
 74
     5
  7

 75
    16
147
1.0
148
0.0
149
0.0
100
AcDbLayout
  1
Layout2
 70
     1
 71
     2
 10
0.0
 20
0.0
 11
0.0
 21
0.0
 12
0.0
 22
0.0
 32
0.0
 14
0.0
 24
0.0
 34
0.0
 15
0.0
 25
0.0
 35
0.0
146
0.0
 13
0.0
 23
0.0
 33
0.0
 16
1.0
 26
0.0
 36
0.0
 17
0.0
 27
1.0
 37
0.0
 76
     0
330
23
  0
LAYOUT
  5
22
102
{ACAD_REACTORS
330
1A
102
}
330
1A
100
AcDbPlotSettings
  1

  2
none_device
  4
Letter_(8.50_x_11.00_Inches)
  6

 40
6.35
 41
6.35
 42
6.35000508
 43
6.35000508
 44
215.9
 45
279.4
 46
0.0
 47
0.0
 48
0.0
 49
0.0
140
0.0
141
0.0
142
1.0
143
1.0
 70
  1712
 72
     1
 73
     0
 74
     0
  7

 75
     0
147
1.0
148
0.0
149
0.0
100
AcDbLayout
  1
Model
 70
     1
 71
     0
 10
0.0
 20
0.0
 11
279.4
 21
215.9
 12
0.0
 22
0.0
 32
0.0
 14
0.0
 24
0.0
 34
0.0
 15
279.4
 25
215.9
 35
0.0
146
0.0
 13
0.0
 23
0.0
 33
0.0
 16
1.0
 26
0.0
 36
0.0
 17
0.0
 27
1.0
 37
0.0
 76
     0
330
1F
331
29
  0
MLINESTYLE
  5
18
102
{ACAD_REACTORS
330
17
102
}
330
17
100
AcDbMlineStyle
  2
Standard
 70
     0
  3

 62
   256
 51
90.0
 52
90.0
 71
     2
 49
0.5
 62
   256
  6
BYLAYER
 49
-0.5
 62
   256
  6
BYLAYER
  0
ACDBPLACEHOLDER
  5
F
102
{ACAD_REACTORS
330
E
102
}
330
E
  0
SCALE
  5
48
102
{ACAD_REACTORS
330
47
102
}
330
47
100
AcDbScale
 70
     0
300
1:1
140
1.0
141
1.0
290
     1
  0
SCALE
  5
49
102
{ACAD_REACTORS
330
47
102
}
330
47
100
AcDbScale
 70
     0
300
1:2
140
1.0
141
2.0
290
     0
  0
SCALE
  5
4A
102
{ACAD_REACTORS
330
47
102
}
330
47
100
AcDbScale
 70
     0
300
1:4
140
1.0
141
4.0
290
     0
  0
SCALE
  5
4B
102
{ACAD_REACTORS
330
47
102
}
330
47
100
AcDbScale
 70
     0
300
1:5
140
1.0
141
5.0
290
     0
  0
SCALE
  5
4C
102
{ACAD_REACTORS
330
47
102
}
330
47
100
AcDbScale
 70
     0
300
1:8
140
1.0
141
8.0
290
     0
  0
SCALE
  5
4D
102
{ACAD_REACTORS
330
47
102
}
330
47
100
AcDbScale
 70
     0
300
1:10
140
1.0
141
10.0
290
     0
  0
SCALE
  5
4E
102
{ACAD_REACTORS
330
47
102
}
330
47
100
AcDbScale
 70
     0
300
1:16
140
1.0
141
16.0
290
     0
  0
SCALE
  5
4F
102
{ACAD_REACTORS
330
47
102
}
330
47
100
AcDbScale
 70
     0
300
1:20
140
1.0
141
20.0
290
     0
  0
SCALE
  5
50
102
{ACAD_REACTORS
330
47
102
}
330
47
100
AcDbScale
 70
     0
300
1:30
140
1.0
141
30.0
290
     0
  0
SCALE
  5
51
102
{ACAD_REACTORS
330
47
102
}
330
47
100
AcDbScale
 70
     0
300
1:40
140
1.0
141
40.0
290
     0
  0
SCALE
  5
52
102
{ACAD_REACTORS
330
47
102
}
330
47
100
AcDbScale
 70
     0
300
1:50
140
1.0
141
50.0
290
     0
  0
SCALE
  5
53
102
{ACAD_REACTORS
330
47
102
}
330
47
100
AcDbScale
 70
     0
300
1:100
140
1.0
141
100.0
290
     0
  0
SCALE
  5
54
102
{ACAD_REACTORS
330
47
102
}
330
47
100
AcDbScale
 70
     0
300
2:1
140
2.0
141
1.0
290
     0
  0
SCALE
  5
55
102
{ACAD_REACTORS
330
47
102
}
330
47
100
AcDbScale
 70
     0
300
4:1
140
4.0
141
1.0
290
     0
  0
SCALE
  5
56
102
{ACAD_REACTORS
330
47
102
}
330
47
100
AcDbScale
 70
     0
300
8:1
140
8.0
141
1.0
290
     0
  0
SCALE
  5
57
102
{ACAD_REACTORS
330
47
102
}
330
47
100
AcDbScale
 70
     0
300
10:1
140
10.0
141
1.0
290
     0
  0
SCALE
  5
58
102
{ACAD_REACTORS
330
47
102
}
330
47
100
AcDbScale
 70
     0
300
100:1
140
100.0
141
1.0
290
     0
  0
SCALE
  5
59
102
{ACAD_REACTORS
330
47
102
}
330
47
100
AcDbScale
 70
     0
300
1/128" = 1'-0"
140
0.0078125
141
12.0
290
     0
  0
SCALE
  5
5A
102
{ACAD_REACTORS
330
47
102
}
330
47
100
AcDbScale
 70
     0
300
1/64" = 1'-0"
140
0.015625
141
12.0
290
     0
  0
SCALE
  5
5B
102
{ACAD_REACTORS
330
47
102
}
330
47
100
AcDbScale
 70
     0
300
1/32" = 1'-0"
140
0.03125
141
12.0
290
     0
  0
SCALE
  5
5C
102
{ACAD_REACTORS
330
47
102
}
330
47
100
AcDbScale
 70
     0
300
1/16" = 1'-0"
140
0.0625
141
12.0
290
     0
  0
SCALE
  5
5D
102
{ACAD_REACTORS
330
47
102
}
330
47
100
AcDbScale
 70
     0
300
3/32" = 1'-0"
140
0.09375
141
12.0
290
     0
  0
SCALE
  5
5E
102
{ACAD_REACTORS
330
47
102
}
330
47
100
AcDbScale
 70
     0
300
1/8" = 1'-0"
140
0.125
141
12.0
290
     0
  0
SCALE
  5
5F
102
{ACAD_REACTORS
330
47
102
}
330
47
100
AcDbScale
 70
     0
300
3/16" = 1'-0"
140
0.1875
141
12.0
290
     0
  0
SCALE
  5
60
102
{ACAD_REACTORS
330
47
102
}
330
47
100
AcDbScale
 70
     0
300
1/4" = 1'-0"
140
0.25
141
12.0
290
     0
  0
SCALE
  5
61
102
{ACAD_REACTORS
330
47
102
}
330
47
100
AcDbScale
 70
     0
300
3/8" = 1'-0"
140
0.375
141
12.0
290
     0
  0
SCALE
  5
62
102
{ACAD_REACTORS
330
47
102
}
330
47
100
AcDbScale
 70
     0
300
1/2" = 1'-0"
140
0.5
141
12.0
290
     0
  0
SCALE
  5
63
102
{ACAD_REACTORS
330
47
102
}
330
47
100
AcDbScale
 70
     0
300
3/4" = 1'-0"
140
0.75
141
12.0
290
     0
  0
SCALE
  5
64
102
{ACAD_REACTORS
330
47
102
}
330
47
100
AcDbScale
 70
     0
300
1" = 1'-0"
140
1.0
141
12.0
290
     0
  0
SCALE
  5
65
102
{ACAD_REACTORS
330
47
102
}
330
47
100
AcDbScale
 70
     0
300
1-1/2" = 1'-0"
140
1.5
141
12.0
290
     0
  0
SCALE
  5
66
102
{ACAD_REACTORS
330
47
102
}
330
47
100
AcDbScale
 70
     0
300
3" = 1'-0"
140
3.0
141
12.0
290
     0
  0
SCALE
  5
67
102
{ACAD_REACTORS
330
47
102
}
330
47
100
AcDbScale
 70
     0
300
6" = 1'-0"
140
6.0
141
12.0
290
     0
  0
SCALE
  5
68
102
{ACAD_REACTORS
330
47
102
}
330
47
100
AcDbScale
 70
     0
300
1'-0" = 1'-0"
140
12.0
141
12.0
290
     0
  0
ENDSEC
  0
EOF
